  0
SECTION
  2
HEADER
  9
$ACADVER
  1
AC1015
  9
$ACADMAINTVER
 70
     6
  9
$DWGCODEPAGE
  3
ANSI_1254
  9
$INSBASE
 10
0.0
 20
0.0
 30
0.0
  9
$EXTMIN
 10
0.0
 20
0.0
 30
0.0
  9
$EXTMAX
 10
279.4
 20
215.9
 30
0.0
  9
$LIMMIN
 10
0.0
 20
0.0
  9
$LIMMAX
 10
279.4
 20
215.9
  9
$ORTHOMODE
 70
     0
  9
$REGENMODE
 70
     1
  9
$FILLMODE
 70
     1
  9
$QTEXTMODE
 70
     0
  9
$MIRRTEXT
 70
     1
  9
$LTSCALE
 40
1.0
  9
$ATTMODE
 70
     1
  9
$TEXTSIZE
 40
3.5
  9
$TRACEWID
 40
1.0
  9
$TEXTSTYLE
  7
Standard
  9
$CLAYER
  8
0
  9
$CELTYPE
  6
ByLayer
  9
$CECOLOR
 62
   256
  9
$CELTSCALE
 40
1.0
  9
$DISPSILH
 70
     0
  9
$DIMSCALE
 40
1.0
  9
$DIMASZ
 40
3.5
  9
$DIMEXO
 40
1.0
  9
$DIMDLI
 40
3.75
  9
$DIMRND
 40
0.0
  9
$DIMDLE
 40
0.0
  9
$DIMEXE
 40
1.0
  9
$DIMTP
 40
0.0
  9
$DIMTM
 40
0.0
  9
$DIMTXT
 40
3.5
  9
$DIMCEN
 40
2.5
  9
$DIMTSZ
 40
0.0
  9
$DIMTOL
 70
     0
  9
$DIMLIM
 70
     0
  9
$DIMTIH
 70
     1
  9
$DIMTOH
 70
     1
  9
$DIMSE1
 70
     0
  9
$DIMSE2
 70
     0
  9
$DIMTAD
 70
     1
  9
$DIMZIN
 70
     0
  9
$DIMBLK
  1

  9
$DIMASO
 70
     1
  9
$DIMSHO
 70
     1
  9
$DIMPOST
  1

  9
$DIMAPOST
  1

  9
$DIMALT
 70
     0
  9
$DIMALTD
 70
     3
  9
$DIMALTF
 40
0.0393700787
  9
$DIMLFAC
 40
1.0
  9
$DIMTOFL
 70
     1
  9
$DIMTVP
 40
0.0
  9
$DIMTIX
 70
     0
  9
$DIMSOXD
 70
     0
  9
$DIMSAH
 70
     0
  9
$DIMBLK1
  1

  9
$DIMBLK2
  1

  9
$DIMSTYLE
  2
ISO-25
  9
$DIMCLRD
 70
     0
  9
$DIMCLRE
 70
     0
  9
$DIMCLRT
 70
     0
  9
$DIMTFAC
 40
1.0
  9
$DIMGAP
 40
1.524
  9
$DIMJUST
 70
     0
  9
$DIMSD1
 70
     0
  9
$DIMSD2
 70
     0
  9
$DIMTOLJ
 70
     0
  9
$DIMTZIN
 70
     0
  9
$DIMALTZ
 70
     0
  9
$DIMALTTZ
 70
     0
  9
$DIMUPT
 70
     0
  9
$DIMDEC
 70
     2
  9
$DIMTDEC
 70
     2
  9
$DIMALTU
 70
     2
  9
$DIMALTTD
 70
     3
  9
$DIMTXSTY
  7
Standard
  9
$DIMAUNIT
 70
     0
  9
$DIMADEC
 70
     2
  9
$DIMALTRND
 40
0.0
  9
$DIMAZIN
 70
     0
  9
$DIMDSEP
 70
    44
  9
$DIMATFIT
 70
     3
  9
$DIMFRAC
 70
     0
  9
$DIMLDRBLK
  1

  9
$DIMLUNIT
 70
     2
  9
$DIMLWD
 70
    -2
  9
$DIMLWE
 70
    -2
  9
$DIMTMOVE
 70
     0
  9
$LUNITS
 70
     2
  9
$LUPREC
 70
     2
  9
$SKETCHINC
 40
1.0
  9
$FILLETRAD
 40
10.0
  9
$AUNITS
 70
     0
  9
$AUPREC
 70
     2
  9
$MENU
  1
.
  9
$ELEVATION
 40
0.0
  9
$PELEVATION
 40
0.0
  9
$THICKNESS
 40
0.0
  9
$LIMCHECK
 70
     0
  9
$CHAMFERA
 40
0.0
  9
$CHAMFERB
 40
0.0
  9
$CHAMFERC
 40
0.0
  9
$CHAMFERD
 40
0.0
  9
$SKPOLY
 70
     0
  9
$TDCREATE
 40
2458985.663537535
  9
$TDUCREATE
 40
2458985.538537535
  9
$TDUPDATE
 40
2458985.663537801
  9
$TDUUPDATE
 40
2458985.538537801
  9
$TDINDWG
 40
0.0000000116
  9
$TDUSRTIMER
 40
0.0000000116
  9
$USRTIMER
 70
     1
  9
$ANGBASE
 50
0.0
  9
$ANGDIR
 70
     0
  9
$PDMODE
 70
     0
  9
$PDSIZE
 40
-1.0
  9
$PLINEWID
 40
0.0
  9
$SPLFRAME
 70
     0
  9
$SPLINETYPE
 70
     6
  9
$SPLINESEGS
 70
     8
  9
$HANDSEED
  5
C2
  9
$SURFTAB1
 70
     6
  9
$SURFTAB2
 70
     6
  9
$SURFTYPE
 70
     6
  9
$SURFU
 70
     6
  9
$SURFV
 70
     6
  9
$UCSBASE
  2

  9
$UCSNAME
  2

  9
$UCSORG
 10
0.0
 20
0.0
 30
0.0
  9
$UCSXDIR
 10
1.0
 20
0.0
 30
0.0
  9
$UCSYDIR
 10
0.0
 20
1.0
 30
0.0
  9
$UCSORTHOREF
  2

  9
$UCSORTHOVIEW
 70
     0
  9
$UCSORGTOP
 10
0.0
 20
0.0
 30
0.0
  9
$UCSORGBOTTOM
 10
0.0
 20
0.0
 30
0.0
  9
$UCSORGLEFT
 10
0.0
 20
0.0
 30
0.0
  9
$UCSORGRIGHT
 10
0.0
 20
0.0
 30
0.0
  9
$UCSORGFRONT
 10
0.0
 20
0.0
 30
0.0
  9
$UCSORGBACK
 10
0.0
 20
0.0
 30
0.0
  9
$PUCSBASE
  2

  9
$PUCSNAME
  2

  9
$PUCSORG
 10
0.0
 20
0.0
 30
0.0
  9
$PUCSXDIR
 10
1.0
 20
0.0
 30
0.0
  9
$PUCSYDIR
 10
0.0
 20
1.0
 30
0.0
  9
$PUCSORTHOREF
  2

  9
$PUCSORTHOVIEW
 70
     0
  9
$PUCSORGTOP
 10
0.0
 20
0.0
 30
0.0
  9
$PUCSORGBOTTOM
 10
0.0
 20
0.0
 30
0.0
  9
$PUCSORGLEFT
 10
0.0
 20
0.0
 30
0.0
  9
$PUCSORGRIGHT
 10
0.0
 20
0.0
 30
0.0
  9
$PUCSORGFRONT
 10
0.0
 20
0.0
 30
0.0
  9
$PUCSORGBACK
 10
0.0
 20
0.0
 30
0.0
  9
$USERI1
 70
     0
  9
$USERI2
 70
     0
  9
$USERI3
 70
     0
  9
$USERI4
 70
     0
  9
$USERI5
 70
     0
  9
$USERR1
 40
0.0
  9
$USERR2
 40
0.0
  9
$USERR3
 40
0.0
  9
$USERR4
 40
0.0
  9
$USERR5
 40
0.0
  9
$WORLDVIEW
 70
     1
  9
$SHADEDGE
 70
     3
  9
$SHADEDIF
 70
    70
  9
$TILEMODE
 70
     1
  9
$MAXACTVP
 70
    64
  9
$PINSBASE
 10
0.0
 20
0.0
 30
0.0
  9
$PLIMCHECK
 70
     0
  9
$PEXTMIN
 10
1.0000000000E+20
 20
1.0000000000E+20
 30
1.0000000000E+20
  9
$PEXTMAX
 10
-1.0000000000E+20
 20
-1.0000000000E+20
 30
-1.0000000000E+20
  9
$PLIMMIN
 10
0.0
 20
0.0
  9
$PLIMMAX
 10
420.0
 20
297.0
  9
$UNITMODE
 70
     0
  9
$VISRETAIN
 70
     1
  9
$PLINEGEN
 70
     0
  9
$PSLTSCALE
 70
     1
  9
$TREEDEPTH
 70
  3020
  9
$CMLSTYLE
  2
Standard
  9
$CMLJUST
 70
     0
  9
$CMLSCALE
 40
20.0
  9
$PROXYGRAPHICS
 70
     1
  9
$MEASUREMENT
 70
     1
  9
$CELWEIGHT
370
    -1
  9
$ENDCAPS
280
     0
  9
$JOINSTYLE
280
     0
  9
$LWDISPLAY
290
     1
  9
$INSUNITS
 70
     4
  9
$HYPERLINKBASE
  1

  9
$STYLESHEET
  1

  9
$XEDIT
290
     1
  9
$CEPSNTYPE
380
     0
  9
$PSTYLEMODE
290
     1
  9
$FINGERPRINTGUID
  2
{ee8a920a-d005-4186-a1f1-0faf20644ce8}
  9
$VERSIONGUID
  2
{FAEB1C32-E019-11D5-929B-00C0DF256EC4}
  9
$EXTNAMES
290
     1
  9
$PSVPSCALE
 40
0.0
  9
$OLESTARTUP
290
     0
  0
ENDSEC
  0
SECTION
  2
CLASSES
  0
CLASS
  1
ACDBDICTIONARYWDFLT
  2
AcDbDictionaryWithDefault
  3
ObjectDBX Classes
 90
        0
280
     0
281
     0
  0
CLASS
  1
VISUALSTYLE
  2
AcDbVisualStyle
  3
ObjectDBX Classes
 90
     4095
280
     0
281
     0
  0
CLASS
  1
MATERIAL
  2
AcDbMaterial
  3
ObjectDBX Classes
 90
     1153
280
     0
281
     0
  0
CLASS
  1
SCALE
  2
AcDbScale
  3
ObjectDBX Classes
 90
     1153
280
     0
281
     0
  0
CLASS
  1
TABLESTYLE
  2
AcDbTableStyle
  3
ObjectDBX Classes
 90
     4095
280
     0
281
     0
  0
CLASS
  1
MLEADERSTYLE
  2
AcDbMLeaderStyle
  3
ACDB_MLEADERSTYLE_CLASS
 90
     4095
280
     0
281
     0
  0
CLASS
  1
SUN
  2
AcDbSun
  3
SCENEOE
 90
     1153
280
     0
281
     0
  0
CLASS
  1
ACDBPLACEHOLDER
  2
AcDbPlaceHolder
  3
ObjectDBX Classes
 90
        0
280
     0
281
     0
  0
CLASS
  1
LAYOUT
  2
AcDbLayout
  3
ObjectDBX Classes
 90
        0
280
     0
281
     0
  0
ENDSEC
  0
SECTION
  2
TABLES
  0
TABLE
  2
VPORT
  5
8
330
0
100
AcDbSymbolTable
 70
     1
  0
VPORT
  5
29
330
8
100
AcDbSymbolTableRecord
100
AcDbViewportTableRecord
  2
*Active
 70
     0
 10
0.0
 20
0.0
 11
1.0
 21
1.0
 12
139.7
 22
107.95
 13
0.0
 23
0.0
 14
10.0
 24
10.0
 15
10.0
 25
10.0
 16
0.0
 26
0.0
 36
1.0
 17
0.0
 27
0.0
 37
0.0
 40
215.9
 41
1.2941176471
 42
50.0
 43
0.0
 44
0.0
 50
0.0
 51
0.0
 71
     0
 72
  2000
 73
     1
 74
     3
 75
     0
 76
     0
 77
     0
 78
     0
281
     0
 65
     1
110
0.0
120
0.0
130
0.0
111
1.0
121
0.0
131
0.0
112
0.0
122
1.0
132
0.0
 79
     0
146
0.0
  0
ENDTAB
  0
TABLE
  2
LTYPE
  5
5
330
0
100
AcDbSymbolTable
 70
     6
  0
LTYPE
  5
14
330
5
100
AcDbSymbolTableRecord
100
AcDbLinetypeTableRecord
  2
ByBlock
 70
     0
  3

 72
    65
 73
     0
 40
0.0
  0
LTYPE
  5
15
330
5
100
AcDbSymbolTableRecord
100
AcDbLinetypeTableRecord
  2
ByLayer
 70
     0
  3

 72
    65
 73
     0
 40
0.0
  0
LTYPE
  5
16
330
5
100
AcDbSymbolTableRecord
100
AcDbLinetypeTableRecord
  2
Continuous
 70
     0
  3
Solid line
 72
    65
 73
     0
 40
0.0
  0
LTYPE
  5
6E
330
5
100
AcDbSymbolTableRecord
100
AcDbLinetypeTableRecord
  2
HIDDEN
 70
     0
  3
Hidden __ __ __ __ __ __ __ __ __ __ __ __ __ __
 72
    65
 73
     2
 40
1.905
 49
1.27
 74
     0
 49
-0.635
 74
     0
  0
LTYPE
  5
6F
330
5
100
AcDbSymbolTableRecord
100
AcDbLinetypeTableRecord
  2
PHANTOM
 70
     0
  3
Phantom ______  __  __  ______  __  __  ______
 72
    65
 73
     6
 40
12.7
 49
6.35
 74
     0
 49
-1.27
 74
     0
 49
1.27
 74
     0
 49
-1.27
 74
     0
 49
1.27
 74
     0
 49
-1.27
 74
     0
  0
LTYPE
  5
70
330
5
100
AcDbSymbolTableRecord
100
AcDbLinetypeTableRecord
  2
CENTER
 70
     0
  3
Center ____ _ ____ _ ____ _ ____ _ ____ _ ____
 72
    65
 73
     4
 40
10.16
 49
6.35
 74
     0
 49
-1.27
 74
     0
 49
1.27
 74
     0
 49
-1.27
 74
     0
  0
LTYPE
  5
71
330
5
100
AcDbSymbolTableRecord
100
AcDbLinetypeTableRecord
  2
CENTERX2
 70
     0
  3
Center (2x) ________  __  ________  __  _____
 72
    65
 73
     4
 40
20.32
 49
12.7
 74
     0
 49
-2.54
 74
     0
 49
2.54
 74
     0
 49
-2.54
 74
     0
  0
LTYPE
  5
72
330
5
100
AcDbSymbolTableRecord
100
AcDbLinetypeTableRecord
  2
DOT2
 70
     0
  3
Dot (.5x) ........................................
 72
    65
 73
     2
 40
0.635
 49
0.0
 74
     0
 49
-0.635
 74
     0
  0
ENDTAB
  0
TABLE
  2
LAYER
  5
2
330
0
100
AcDbSymbolTable
 70
    17
  0
LAYER
  5
10
330
2
100
AcDbSymbolTableRecord
100
AcDbLayerTableRecord
  2
0
 70
     0
 62
     7
  6
Continuous
370
    -3
390
F
  0
LAYER
  5
73
330
2
100
AcDbSymbolTableRecord
100
AcDbLayerTableRecord
  2
FORMAT
 70
     0
 62
     7
  6
Continuous
370
    -3
390
F
  0
LAYER
  5
74
330
2
100
AcDbSymbolTableRecord
100
AcDbLayerTableRecord
  2
YARDIMCI_GEOMETRI
 70
     0
 62
    -6
  6
Continuous
290
     0
370
    -3
390
F
  0
LAYER
  5
75
330
2
100
AcDbSymbolTableRecord
100
AcDbLayerTableRecord
  2
SAYFA_CERCEVESI
 70
     0
 62
     7
  6
Continuous
370
    25
390
F
  0
LAYER
  5
76
330
2
100
AcDbSymbolTableRecord
100
AcDbLayerTableRecord
  2
ANTET
 70
     0
 62
     7
  6
Continuous
370
    -3
390
F
  0
LAYER
  5
77
330
2
100
AcDbSymbolTableRecord
100
AcDbLayerTableRecord
  2
OLCU
 70
     0
 62
   150
  6
Continuous
370
    -3
390
F
  0
LAYER
  5
78
330
2
100
AcDbSymbolTableRecord
100
AcDbLayerTableRecord
  2
METIN
 70
     0
 62
    96
  6
Continuous
370
    -3
390
F
  0
LAYER
  5
79
330
2
100
AcDbSymbolTableRecord
100
AcDbLayerTableRecord
  2
BALON
 70
     0
 62
     5
  6
Continuous
370
    -3
390
F
  0
LAYER
  5
7A
330
2
100
AcDbSymbolTableRecord
100
AcDbLayerTableRecord
  2
VURGU
 70
     0
 62
     7
  6
Continuous
370
    -3
390
F
  0
LAYER
  5
7B
330
2
100
AcDbSymbolTableRecord
100
AcDbLayerTableRecord
  2
SILIK
 70
     0
 62
     7
  6
Continuous
370
    -3
390
F
  0
LAYER
  5
7C
330
2
100
AcDbSymbolTableRecord
100
AcDbLayerTableRecord
  2
MODEL
 70
     0
 62
     7
  6
Continuous
370
    -3
390
F
  0
LAYER
  5
7D
330
2
100
AcDbSymbolTableRecord
100
AcDbLayerTableRecord
  2
DETAYLANDıRMA
 70
     0
 62
   190
  6
Continuous
370
    -3
390
F
  0
LAYER
  5
7E
330
2
100
AcDbSymbolTableRecord
100
AcDbLayerTableRecord
  2
TOLERANS
 70
     0
 62
   230
  6
Continuous
370
    -3
390
F
  0
LAYER
  5
7F
330
2
100
AcDbSymbolTableRecord
100
AcDbLayerTableRecord
  2
MERKEZ_CIZGILERI
 70
     0
 62
    30
  6
Continuous
370
    -3
390
F
  0
LAYER
  5
80
330
2
100
AcDbSymbolTableRecord
100
AcDbLayerTableRecord
  2
KESIT-DETAY_CIZGILERI
 70
     0
 62
     7
  6
Continuous
370
    -3
390
F
  0
LAYER
  5
81
330
2
100
AcDbSymbolTableRecord
100
AcDbLayerTableRecord
  2
\U+041E\U+0421\U+0415\U+0412\U+042B\U+0415
 70
     0
 62
     7
  6
Continuous
370
    -3
390
F
  0
LAYER
  5
82
330
2
100
AcDbSymbolTableRecord
100
AcDbLayerTableRecord
  2
\U+0412\U+041E\U+0414\U+042F\U+041D\U+042B\U+0415_\U+0417\U+041D\U+0410\U+041A\U+0418
 70
     0
 62
    11
  6
Continuous
370
    -3
390
F
  0
ENDTAB
  0
TABLE
  2
STYLE
  5
3
330
0
100
AcDbSymbolTable
 70
     1
  0
STYLE
  5
11
330
3
100
AcDbSymbolTableRecord
100
AcDbTextStyleTableRecord
  2
Standard
 70
     0
 40
0.0
 41
1.0
 50
0.0
 71
     0
 42
3.5
  3
txt
  4

  0
ENDTAB
  0
TABLE
  2
VIEW
  5
6
330
0
100
AcDbSymbolTable
 70
     0
  0
ENDTAB
  0
TABLE
  2
UCS
  5
7
330
0
100
AcDbSymbolTable
 70
     0
  0
ENDTAB
  0
TABLE
  2
APPID
  5
9
330
0
100
AcDbSymbolTable
 70
     1
  0
APPID
  5
12
330
9
100
AcDbSymbolTableRecord
100
AcDbRegAppTableRecord
  2
ACAD
 70
     0
  0
ENDTAB
  0
TABLE
  2
DIMSTYLE
  5
A
330
0
100
AcDbSymbolTable
 70
     1
100
AcDbDimStyleTable
  0
DIMSTYLE
105
27
330
A
100
AcDbSymbolTableRecord
100
AcDbDimStyleTableRecord
  2
ISO-25
 70
     0
 41
2.5
 42
0.625
 43
3.75
 44
1.25
 73
     0
 74
     0
 77
     1
 78
     8
140
2.5
141
2.5
143
0.0393700787
147
0.625
171
     3
172
     1
178
     0
271
     2
272
     2
274
     3
278
    44
283
     0
284
     8
340
11
  0
ENDTAB
  0
TABLE
  2
BLOCK_RECORD
  5
1
330
0
100
AcDbSymbolTable
 70
     1
  0
BLOCK_RECORD
  5
1F
330
1
100
AcDbSymbolTableRecord
100
AcDbBlockTableRecord
  2
*Model_Space
340
22
  0
BLOCK_RECORD
  5
1B
330
1
100
AcDbSymbolTableRecord
100
AcDbBlockTableRecord
  2
*Paper_Space
340
1E
  0
BLOCK_RECORD
  5
23
330
1
100
AcDbSymbolTableRecord
100
AcDbBlockTableRecord
  2
*Paper_Space0
340
26
  0
ENDTAB
  0
ENDSEC
  0
SECTION
  2
BLOCKS
  0
BLOCK
  5
20
330
1F
100
AcDbEntity
  8
0
100
AcDbBlockBegin
  2
*Model_Space
 70
     0
 10
0.0
 20
0.0
 30
0.0
  3
*Model_Space
  1

  0
ENDBLK
  5
21
330
1F
100
AcDbEntity
  8
0
100
AcDbBlockEnd
  0
BLOCK
  5
1C
330
1B
100
AcDbEntity
 67
     1
  8
0
100
AcDbBlockBegin
  2
*Paper_Space
 70
     0
 10
0.0
 20
0.0
 30
0.0
  3
*Paper_Space
  1

  0
ENDBLK
  5
1D
330
1B
100
AcDbEntity
 67
     1
  8
0
100
AcDbBlockEnd
  0
BLOCK
  5
24
330
23
100
AcDbEntity
  8
0
100
AcDbBlockBegin
  2
*Paper_Space0
 70
     0
 10
0.0
 20
0.0
 30
0.0
  3
*Paper_Space0
  1

  0
ENDBLK
  5
25
330
23
100
AcDbEntity
  8
0
100
AcDbBlockEnd
  0
ENDSEC
  0
SECTION
  2
ENTITIES
  0
CIRCLE
  5
83
330
1F
100
AcDbEntity
  8
0
  6
Continuous
 62
     7
370
    25
100
AcDbCircle
 10
142.5879083177
 20
108.3824692542
 30
0.0
 40
140.0
  0
CIRCLE
  5
84
330
1F
100
AcDbEntity
  8
0
  6
Continuous
 62
     7
370
    25
100
AcDbCircle
 10
142.5879083177
 20
108.3824692542
 30
0.0
 40
123.4
  0
CIRCLE
  5
85
330
1F
100
AcDbEntity
  8
0
  6
Continuous
 62
     7
370
    25
100
AcDbCircle
 10
142.5879083177
 20
108.3824692542
 30
0.0
 40
144.0
  0
CIRCLE
  5
86
330
1F
100
AcDbEntity
  8
0
  6
Continuous
 62
     7
370
    25
100
AcDbCircle
 10
142.5879083177
 20
108.3824692542
 30
0.0
 40
160.0
  0
LINE
  5
87
330
1F
100
AcDbEntity
  8
0
  6
Continuous
 62
     7
370
    25
100
AcDbLine
 10
302.5879083177
 20
338.0292894839
 30
0.0
 11
302.5879083177
 21
373.0292894839
 31
0.0
  0
LINE
  5
88
330
1F
100
AcDbEntity
  8
0
  6
Continuous
 62
     7
370
    25
100
AcDbLine
 10
-17.4120916823
 20
373.0292894839
 30
0.0
 11
-17.4120916823
 21
338.0292894839
 31
0.0
  0
LINE
  5
89
330
1F
100
AcDbEntity
  8
0
  6
Continuous
 62
     7
370
    25
100
AcDbLine
 10
286.5879083177
 20
373.0292894839
 30
0.0
 11
282.5879083177
 21
402.0292894839
 31
0.0
  0
LINE
  5
8A
330
1F
100
AcDbEntity
  8
0
  6
Continuous
 62
     7
370
    25
100
AcDbLine
 10
2.5879083177
 20
402.0292894839
 30
0.0
 11
-1.4120916823
 21
373.0292894839
 31
0.0
  0
LINE
  5
8B
330
1F
100
AcDbEntity
  8
0
  6
Continuous
 62
     7
370
    25
100
AcDbLine
 10
282.5879083177
 20
402.0292894839
 30
0.0
 11
282.5879083177
 21
458.0292894839
 31
0.0
  0
LINE
  5
8C
330
1F
100
AcDbEntity
  8
0
  6
Continuous
 62
     7
370
    25
100
AcDbLine
 10
2.5879083177
 20
458.0292894839
 30
0.0
 11
2.5879083177
 21
402.0292894839
 31
0.0
  0
LINE
  5
8D
330
1F
100
AcDbEntity
  8
0
  6
Continuous
 62
     7
370
    25
100
AcDbLine
 10
302.5879083177
 20
338.0292894839
 30
0.0
 11
-17.4120916823
 21
338.0292894839
 31
0.0
  0
LINE
  5
8E
330
1F
100
AcDbEntity
  8
0
  6
Continuous
 62
     7
370
    25
100
AcDbLine
 10
302.5879083177
 20
373.0292894839
 30
0.0
 11
-17.4120916823
 21
373.0292894839
 31
0.0
  0
LINE
  5
8F
330
1F
100
AcDbEntity
  8
0
  6
Continuous
 62
     7
370
    25
100
AcDbLine
 10
282.5879083177
 20
402.0292894839
 30
0.0
 11
2.5879083177
 21
402.0292894839
 31
0.0
  0
LINE
  5
90
330
1F
100
AcDbEntity
  8
0
  6
Continuous
 62
     7
370
    25
100
AcDbLine
 10
282.5879083177
 20
458.0292894839
 30
0.0
 11
2.5879083177
 21
458.0292894839
 31
0.0
  0
LINE
  5
91
330
1F
100
AcDbEntity
  8
0
  6
Continuous
 62
     7
370
    25
100
AcDbLine
 10
-214.5027785034
 20
268.3824692542
 30
0.0
 11
-249.5027785034
 21
268.3824692542
 31
0.0
  0
LINE
  5
92
330
1F
100
AcDbEntity
  8
0
  6
Continuous
 62
     7
370
    25
100
AcDbLine
 10
-249.5027785034
 20
-51.6175307458
 30
0.0
 11
-214.5027785034
 21
-51.6175307458
 31
0.0
  0
LINE
  5
93
330
1F
100
AcDbEntity
  8
0
  6
Continuous
 62
     7
370
    25
100
AcDbLine
 10
-249.5027785034
 20
252.3824692542
 30
0.0
 11
-278.5027785034
 21
248.3824692542
 31
0.0
  0
LINE
  5
94
330
1F
100
AcDbEntity
  8
0
  6
Continuous
 62
     7
370
    25
100
AcDbLine
 10
-278.5027785034
 20
-31.6175307458
 30
0.0
 11
-249.5027785034
 21
-35.6175307458
 31
0.0
  0
LINE
  5
95
330
1F
100
AcDbEntity
  8
0
  6
Continuous
 62
     7
370
    25
100
AcDbLine
 10
-278.5027785034
 20
248.3824692542
 30
0.0
 11
-334.5027785034
 21
248.3824692542
 31
0.0
  0
LINE
  5
96
330
1F
100
AcDbEntity
  8
0
  6
Continuous
 62
     7
370
    25
100
AcDbLine
 10
-334.5027785034
 20
-31.6175307458
 30
0.0
 11
-278.5027785034
 21
-31.6175307458
 31
0.0
  0
LINE
  5
97
330
1F
100
AcDbEntity
  8
0
  6
Continuous
 62
     7
370
    25
100
AcDbLine
 10
-214.5027785034
 20
268.3824692542
 30
0.0
 11
-214.5027785034
 21
-51.6175307458
 31
0.0
  0
LINE
  5
98
330
1F
100
AcDbEntity
  8
0
  6
Continuous
 62
     7
370
    25
100
AcDbLine
 10
-249.5027785034
 20
268.3824692542
 30
0.0
 11
-249.5027785034
 21
-51.6175307458
 31
0.0
  0
LINE
  5
99
330
1F
100
AcDbEntity
  8
0
  6
Continuous
 62
     7
370
    25
100
AcDbLine
 10
-278.5027785034
 20
248.3824692542
 30
0.0
 11
-278.5027785034
 21
-31.6175307458
 31
0.0
  0
LINE
  5
9A
330
1F
100
AcDbEntity
  8
0
  6
Continuous
 62
     7
370
    25
100
AcDbLine
 10
-334.5027785034
 20
248.3824692542
 30
0.0
 11
-334.5027785034
 21
-31.6175307458
 31
0.0
  0
LINE
  5
9B
330
1F
100
AcDbEntity
  8
0
  6
Continuous
 62
     7
370
    25
100
AcDbLine
 10
-17.4120916823
 20
-232.8258909551
 30
0.0
 11
-17.4120916823
 21
-267.8258909551
 31
0.0
  0
LINE
  5
9C
330
1F
100
AcDbEntity
  8
0
  6
Continuous
 62
     7
370
    25
100
AcDbLine
 10
302.5879083177
 20
-267.8258909551
 30
0.0
 11
302.5879083177
 21
-232.8258909551
 31
0.0
  0
LINE
  5
9D
330
1F
100
AcDbEntity
  8
0
  6
Continuous
 62
     7
370
    25
100
AcDbLine
 10
-1.4120916823
 20
-267.8258909551
 30
0.0
 11
2.5879083177
 21
-296.8258909551
 31
0.0
  0
LINE
  5
9E
330
1F
100
AcDbEntity
  8
0
  6
Continuous
 62
     7
370
    25
100
AcDbLine
 10
282.5879083177
 20
-296.8258909551
 30
0.0
 11
286.5879083177
 21
-267.8258909551
 31
0.0
  0
LINE
  5
9F
330
1F
100
AcDbEntity
  8
0
  6
Continuous
 62
     7
370
    25
100
AcDbLine
 10
2.5879083177
 20
-296.8258909551
 30
0.0
 11
2.5879083177
 21
-352.8258909551
 31
0.0
  0
LINE
  5
A0
330
1F
100
AcDbEntity
  8
0
  6
Continuous
 62
     7
370
    25
100
AcDbLine
 10
282.5879083177
 20
-352.8258909551
 30
0.0
 11
282.5879083177
 21
-296.8258909551
 31
0.0
  0
LINE
  5
A1
330
1F
100
AcDbEntity
  8
0
  6
Continuous
 62
     7
370
    25
100
AcDbLine
 10
-17.4120916823
 20
-232.8258909551
 30
0.0
 11
302.5879083177
 21
-232.8258909551
 31
0.0
  0
LINE
  5
A2
330
1F
100
AcDbEntity
  8
0
  6
Continuous
 62
     7
370
    25
100
AcDbLine
 10
-17.4120916823
 20
-267.8258909551
 30
0.0
 11
302.5879083177
 21
-267.8258909551
 31
0.0
  0
LINE
  5
A3
330
1F
100
AcDbEntity
  8
0
  6
Continuous
 62
     7
370
    25
100
AcDbLine
 10
2.5879083177
 20
-296.8258909551
 30
0.0
 11
282.5879083177
 21
-296.8258909551
 31
0.0
  0
LINE
  5
A4
330
1F
100
AcDbEntity
  8
0
  6
Continuous
 62
     7
370
    25
100
AcDbLine
 10
2.5879083177
 20
-352.8258909551
 30
0.0
 11
282.5879083177
 21
-352.8258909551
 31
0.0
  0
LINE
  5
A5
330
1F
100
AcDbEntity
  8
0
  6
Continuous
 62
     7
370
    25
100
AcDbLine
 10
505.4191516315
 20
-51.6175307458
 30
0.0
 11
540.4191516315
 21
-51.6175307458
 31
0.0
  0
LINE
  5
A6
330
1F
100
AcDbEntity
  8
0
  6
Continuous
 62
     7
370
    25
100
AcDbLine
 10
540.4191516315
 20
268.3824692542
 30
0.0
 11
505.4191516315
 21
268.3824692542
 31
0.0
  0
LINE
  5
A7
330
1F
100
AcDbEntity
  8
0
  6
Continuous
 62
     7
370
    25
100
AcDbLine
 10
540.4191516315
 20
-35.6175307458
 30
0.0
 11
569.4191516315
 21
-31.6175307458
 31
0.0
  0
LINE
  5
A8
330
1F
100
AcDbEntity
  8
0
  6
Continuous
 62
     7
370
    25
100
AcDbLine
 10
569.4191516315
 20
248.3824692542
 30
0.0
 11
540.4191516315
 21
252.3824692542
 31
0.0
  0
LINE
  5
A9
330
1F
100
AcDbEntity
  8
0
  6
Continuous
 62
     7
370
    25
100
AcDbLine
 10
569.4191516315
 20
-31.6175307458
 30
0.0
 11
625.4191516315
 21
-31.6175307458
 31
0.0
  0
LINE
  5
AA
330
1F
100
AcDbEntity
  8
0
  6
Continuous
 62
     7
370
    25
100
AcDbLine
 10
625.4191516315
 20
248.3824692542
 30
0.0
 11
569.4191516315
 21
248.3824692542
 31
0.0
  0
LINE
  5
AB
330
1F
100
AcDbEntity
  8
0
  6
Continuous
 62
     7
370
    25
100
AcDbLine
 10
505.4191516315
 20
108.3824692542
 30
0.0
 11
505.4191516315
 21
268.3824692542
 31
0.0
  0
LINE
  5
AC
330
1F
100
AcDbEntity
  8
0
  6
Continuous
 62
     7
370
    25
100
AcDbLine
 10
505.4191516315
 20
-51.6175307458
 30
0.0
 11
505.4191516315
 21
108.3824692542
 31
0.0
  0
LINE
  5
AD
330
1F
100
AcDbEntity
  8
0
  6
Continuous
 62
     7
370
    25
100
AcDbLine
 10
540.4191516315
 20
108.3824692542
 30
0.0
 11
540.4191516315
 21
268.3824692542
 31
0.0
  0
LINE
  5
AE
330
1F
100
AcDbEntity
  8
0
  6
Continuous
 62
     7
370
    25
100
AcDbLine
 10
540.4191516315
 20
-51.6175307458
 30
0.0
 11
540.4191516315
 21
108.3824692542
 31
0.0
  0
LINE
  5
AF
330
1F
100
AcDbEntity
  8
0
  6
Continuous
 62
     7
370
    25
100
AcDbLine
 10
569.4191516315
 20
108.3824692542
 30
0.0
 11
569.4191516315
 21
248.3824692542
 31
0.0
  0
LINE
  5
B0
330
1F
100
AcDbEntity
  8
0
  6
Continuous
 62
     7
370
    25
100
AcDbLine
 10
569.4191516315
 20
-31.6175307458
 30
0.0
 11
569.4191516315
 21
108.3824692542
 31
0.0
  0
LINE
  5
B1
330
1F
100
AcDbEntity
  8
0
  6
Continuous
 62
     7
370
    25
100
AcDbLine
 10
625.4191516315
 20
108.3824692542
 30
0.0
 11
625.4191516315
 21
248.3824692542
 31
0.0
  0
LINE
  5
B2
330
1F
100
AcDbEntity
  8
0
  6
Continuous
 62
     7
370
    25
100
AcDbLine
 10
625.4191516315
 20
-31.6175307458
 30
0.0
 11
625.4191516315
 21
108.3824692542
 31
0.0
  0
LINE
  5
B3
330
1F
100
AcDbEntity
  8
0
  6
Continuous
 62
     7
370
    25
100
AcDbLine
 10
595.551659321
 20
-151.7648755102
 30
0.0
 11
555.9536795745
 21
-128.9054483791
 31
0.0
  0
LINE
  5
B4
330
1F
100
AcDbEntity
  8
0
  6
Continuous
 62
     7
370
    25
100
AcDbLine
 10
415.9650570055
 20
-371.3991298457
 30
0.0
 11
455.5630367519
 21
-394.2585569767
 31
0.0
  0
LINE
  5
B5
330
1F
100
AcDbEntity
  8
0
  6
Continuous
 62
     7
370
    25
100
AcDbLine
 10
650.8056806433
 20
-160.5689578409
 30
0.0
 11
626.0569433018
 21
-146.281815884
 31
0.0
  0
LINE
  5
B6
330
1F
100
AcDbEntity
  8
0
  6
Continuous
 62
     7
370
    25
100
AcDbLine
 10
466.06994608
 20
-423.4174518458
 30
0.0
 11
490.8186834215
 21
-437.7045938027
 31
0.0
  0
LINE
  5
B7
330
1F
100
AcDbEntity
  8
0
  6
Continuous
 62
     7
370
    25
100
AcDbLine
 10
610.690854521
 20
-156.6787204074
 30
0.0
 11
592.1293260681
 21
-149.7892045766
 31
0.0
  0
LINE
  5
B8
330
1F
100
AcDbEntity
  8
0
  6
Continuous
 62
     7
370
    25
100
AcDbLine
 10
452.1407034991
 20
-392.2828860432
 30
0.0
 11
467.3891485638
 21
-404.9114524701
 31
0.0
  0
LWPOLYLINE
  5
B9
330
1F
100
AcDbEntity
  8
0
  6
Continuous
 62
     7
370
    25
100
AcDbPolyline
 90
      132
 70
   128
 43
0.0
 10
386.9644189239
 20
-307.30085694
 10
387.0782647018
 20
-301.7542843934
 10
387.4195401867
 20
-296.089025604
 10
387.987460434
 20
-290.3181108486
 10
388.7807192089
 20
-284.4548134162
 10
389.7974919908
 20
-278.5126190785
 10
391.0354401697
 20
-272.5051950732
 10
392.4917164252
 20
-266.4463586678
 10
394.1629712752
 20
-260.3500453802
 10
396.04536078
 20
-254.2302769265
 10
398.1345553834
 20
-248.1011289701
 10
400.4257498709
 20
-241.9766987478
 10
402.9136744217
 20
-235.8710726453
 10
405.5926067296
 20
-229.7982937984
 10
408.4563851646
 20
-223.7723297929
 10
411.4984229443
 20
-217.8070405392
 10
414.7117232844
 20
-211.9161463937
 10
418.0888954912
 20
-206.1131966018
 10
421.6221719604
 20
-200.4115381339
 10
425.3034260429
 20
-194.8242849872
 10
429.1241907363
 20
-189.364288023
 10
433.0756781593
 20
-184.0441054093
 10
437.1487997644
 20
-178.8759737366
 10
441.3341872412
 20
-173.8717798734
 10
445.6222140644
 20
-169.0430336258
 10
450.003017635
 20
-164.400841265
 10
454.4665219644
 20
-159.9558799822
 10
459.0024608495
 20
-155.7183733308
 10
463.6004014855
 20
-151.6980677119
 10
468.2497684617
 20
-147.9042099572
 10
472.939868085
 20
-144.3455260611
 10
477.659912976
 20
-141.0302011107
 10
482.3990468802
 20
-137.9658604596
 10
487.1463696378
 20
-135.1595521894
 10
491.8909622541
 20
-132.6177308991
 10
496.6219120143
 20
-130.3462428592
 10
501.3283375823
 20
-128.3503125649
 10
505.9994140283
 20
-126.6345307199
 10
510.624397727
 20
-125.2028436773
 10
515.1926510675
 20
-124.0585443633
 10
519.6936669209
 20
-123.204264703
 10
524.1170928064
 20
-122.6419695668
 10
528.4527547027
 20
-122.3729522518
 10
532.6906804486
 20
-122.3978315063
 10
536.821122679
 20
-122.7165501073
 10
540.8345812444
 20
-123.3283749916
 10
544.7218250615
 20
-124.2318989426
 10
548.4739133449
 20
-125.4250438262
 10
552.0822161714
 20
-126.9050653709
 10
555.5384343289
 20
-128.6685594796
 10
558.8346184048
 20
-130.7114700595
 10
561.96318707
 20
-133.0290983508
 10
564.9169445166
 20
-135.6161137341
 10
567.6890970075
 20
-138.4665659912
 10
570.2732685034
 20
-141.5738989904
 10
572.6635153269
 20
-144.9309657663
 10
574.8543398337
 20
-148.5300449578
 10
576.8407030573
 20
-152.3628585674
 10
578.6180362986
 20
-156.420591001
 10
580.1822516342
 20
-160.6939093439
 10
581.5297513187
 20
-165.172984827
 10
582.6574360596
 20
-169.8475154331
 10
583.562712146
 20
-174.7067495921
 10
584.2434974137
 20
-179.7395109097
 10
584.6982260348
 20
-184.9342238735
 10
584.9258521191
 20
-190.2789404774
 10
584.9258521191
 20
-195.7613677018
 10
584.6982260348
 20
-201.3688957884
 10
584.2434974137
 20
-207.0886272429
 10
583.562712146
 20
-212.9074064997
 10
582.6574360596
 20
-218.8118501801
 10
581.5297513187
 20
-224.7883778743
 10
580.1822516342
 20
-230.8232433772
 10
578.6180362986
 20
-236.9025663047
 10
576.8407030573
 20
-243.0123640192
 10
574.8543398337
 20
-249.1385837903
 10
572.6635153269
 20
-255.267135116
 10
570.2732685034
 20
-261.3839221321
 10
567.6890970075
 20
-267.4748760323
 10
564.9169445166
 20
-273.5259874274
 10
561.96318707
 20
-279.5233385674
 10
558.8346184048
 20
-285.4531353525
 10
555.5384343289
 20
-291.30173906
 10
552.0822161714
 20
-297.0556977139
 10
548.4739133449
 20
-302.701777025
 10
544.7218250615
 20
-308.22699083
 10
540.8345812444
 20
-313.6186309599
 10
536.821122679
 20
-318.8642964698
 10
532.6906804486
 20
-323.9519221609
 10
528.4527547027
 20
-328.8698063311
 10
524.1170928064
 20
-333.6066376891
 10
519.6936669209
 20
-338.151521371
 10
515.1926510675
 20
-342.4940039988
 10
510.624397727
 20
-346.6240977231
 10
505.9994140283
 20
-350.5323031963
 10
501.3283375823
 20
-354.2096314203
 10
496.6219120143
 20
-357.6476244224
 10
491.8909622541
 20
-360.8383747085
 10
487.1463696377
 20
-363.7745434509
 10
482.3990468802
 20
-366.4493773671
 10
477.659912976
 20
-368.8567242536
 10
472.939868085
 20
-370.9910471354
 10
468.2497684617
 20
-372.8474370013
 10
463.6004014855
 20
-374.4216240953
 10
459.0024608495
 20
-375.7099877365
 10
454.4665219644
 20
-376.7095646474
 10
450.003017635
 20
-377.418055769
 10
445.6222140644
 20
-377.8338315489
 10
441.3341872412
 20
-377.9559356896
 10
437.1487997644
 20
-377.7840873477
 10
433.0756781593
 20
-377.3186817799
 10
429.1241907363
 20
-376.5607894338
 10
425.3034260429
 20
-375.5121534861
 10
421.6221719604
 20
-374.1751858332
 10
418.0888954912
 20
-372.5529615434
 10
414.7117232844
 20
-370.6492117847
 10
411.4984229443
 20
-368.4683152424
 10
408.4563851646
 20
-366.0152880486
 10
405.5926067296
 20
-363.2957722443
 10
402.9136744217
 20
-360.3160228031
 10
400.4257498709
 20
-357.0828932441
 10
398.1345553834
 20
-353.603819869
 10
396.04536078
 20
-349.8868046581
 10
394.1629712752
 20
-345.9403968653
 10
392.4917164252
 20
-341.7736733551
 10
391.0354401697
 20
-337.3962177251
 10
389.7974919908
 20
-332.8180982636
 10
388.7807192089
 20
-328.0498447919
 10
387.987460434
 20
-323.1024244459
 10
387.4195401867
 20
-317.9872164509
 10
387.0782647018
 20
-312.7159859493
 10
386.9644189239
 20
-307.30085694
  0
LWPOLYLINE
  5
BA
330
1F
100
AcDbEntity
  8
0
  6
Continuous
 62
     7
370
    25
100
AcDbPolyline
 90
      124
 70
   128
 43
0.0
 10
398.7023914916
 20
-300.5246696119
 10
398.8162132364
 20
-295.3140382607
 10
399.1573815229
 20
-289.9855850625
 10
399.7250062819
 20
-284.5532113433
 10
400.5176066453
 20
-279.0310895458
 10
401.5331148092
 20
-273.4336262553
 10
402.7688814288
 20
-267.7754246144
 10
404.22168253
 20
-262.0712462252
 10
405.8877279207
 20
-256.3359726378
 10
407.7626710787
 20
-250.5845665261
 10
409.8416204913
 20
-244.832032652
 10
412.119152417
 20
-239.0933787195
 10
414.5893250348
 20
-233.3835762216
 10
417.2456939467
 20
-227.717521381
 10
420.0813289892
 20
-222.1099962878
 10
423.0888323144
 20
-216.5756303347
 10
426.2603576896
 20
-211.1288620507
 10
429.587630967
 20
-205.7839014323
 10
433.0619716707
 20
-200.5546928714
 10
436.6743156424
 20
-195.4548787761
 10
440.4152386892
 20
-190.4977639791
 10
444.2749811699
 20
-185.6962810269
 10
448.2434734572
 20
-181.0629564404
 10
452.3103622078
 20
-176.6098780342
 10
456.4650373732
 20
-172.3486633816
 10
460.6966598804
 20
-168.2904295051
 10
464.9941899094
 20
-164.4457638734
 10
469.346415695
 20
-160.8246967802
 10
473.7419827771
 20
-157.4366751761
 10
478.169423623
 20
-154.2905380226
 10
482.6171875451
 20
-151.3944932324
 10
487.0736708352
 20
-148.7560962556
 10
491.5272470371
 20
-146.3822303688
 10
495.9662972792
 20
-144.2790887168
 10
500.379240586
 20
-142.4521581563
 10
504.7545640925
 20
-140.9062049404
 10
509.0808530792
 20
-139.6452622846
 10
513.346820752
 20
-138.6726198442
 10
517.5413376884
 20
-137.9908151324
 10
521.6534608726
 20
-137.6016268998
 10
525.6724622448
 20
-137.506070494
 10
529.5878566892
 20
-137.7043952108
 10
533.3894293888
 20
-138.1960836437
 10
537.0672624745
 20
-138.9798530337
 10
540.6117608997
 20
-140.0536586159
 10
544.0136774728
 20
-141.4146989541
 10
547.2641369817
 20
-143.0594232496
 10
550.3546593487
 20
-144.9835406045
 10
553.277181754
 20
-147.1820312162
 10
556.0240796701
 20
-149.6491594737
 10
558.5881867542
 20
-152.3784889212
 10
560.9628135435
 20
-155.3628990498
 10
563.141764908
 20
-158.5946038741
 10
565.1193562122
 20
-162.0651722452
 10
566.8904281463
 20
-165.7655498467
 10
568.4503601858
 20
-169.6860828157
 10
569.7950826462
 20
-173.8165429294
 10
570.9210873
 20
-178.1461542891
 10
571.8254365298
 20
-182.6636214329
 10
572.5057709916
 20
-187.357158805
 10
572.9603157704
 20
-192.2145215021
 10
573.1878850109
 20
-197.2230372198
 10
573.1878850109
 20
-202.3696393122
 10
572.9603157704
 20
-207.6409008822
 10
572.5057709916
 20
-213.0230698103
 10
571.8254365298
 20
-218.5021046321
 10
570.9210873
 20
-224.0637111715
 10
569.7950826462
 20
-229.6933798319
 10
568.4503601858
 20
-235.3764234507
 10
566.8904281463
 20
-241.098015616
 10
565.1193562122
 20
-246.843229347
 10
563.141764908
 20
-252.5970760371
 10
560.9628135435
 20
-258.3445445572
 10
558.5881867542
 20
-264.0706404183
 10
556.0240796701
 20
-269.76042489
 10
553.277181754
 20
-275.3990539742
 10
550.3546593487
 20
-280.9718171316
 10
547.2641369817
 20
-286.4641756593
 10
544.0136774728
 20
-291.8618006211
 10
540.6117608997
 20
-297.1506102296
 10
537.0672624745
 20
-302.3168065846
 10
533.3894293888
 20
-307.3469116695
 10
529.5878566892
 20
-312.2278025146
 10
525.6724622448
 20
-316.9467454328
 10
521.6534608726
 20
-321.4914292411
 10
517.5413376884
 20
-325.8499973781
 10
513.346820752
 20
-330.0110788373
 10
509.0808530792
 20
-333.9638178323
 10
504.7545640925
 20
-337.6979021183
 10
500.379240586
 20
-341.2035898958
 10
495.9662972792
 20
-344.4717352257
 10
491.5272470371
 20
-347.4938118899
 10
487.0736708352
 20
-350.2619356355
 10
482.6171875451
 20
-352.7688847436
 10
478.169423623
 20
-355.0081188704
 10
473.7419827771
 20
-356.9737961096
 10
469.346415695
 20
-358.6607882338
 10
464.9941899094
 20
-360.0646940731
 10
460.6966598804
 20
-361.1818509975
 10
456.4650373732
 20
-362.0093444721
 10
452.3103622078
 20
-362.5450156609
 10
448.2434734572
 20
-362.787467059
 10
444.2749811699
 20
-362.7360661384
 10
440.4152386892
 20
-362.3909469981
 10
436.6743156424
 20
-361.7530100147
 10
433.0619716707
 20
-360.8239194928
 10
429.587630967
 20
-359.6060993235
 10
426.2603576896
 20
-358.1027266607
 10
423.0888323144
 20
-356.317723632
 10
420.0813289892
 20
-354.2557471064
 10
417.2456939467
 20
-351.9221765452
 10
414.5893250348
 20
-349.3230999677
 10
412.119152417
 20
-346.4652980678
 10
409.8416204913
 20
-343.3562265244
 10
407.7626710787
 20
-340.0039965502
 10
405.8877279207
 20
-336.4173537304
 10
404.22168253
 20
-332.6056552067
 10
402.7688814288
 20
-328.5788452652
 10
401.5331148092
 20
-324.3474293933
 10
400.5176066453
 20
-319.922446872
 10
399.7250062819
 20
-315.3154419752
 10
399.1573815229
 20
-310.5384338529
 10
398.8162132364
 20
-305.6038851738
 10
398.7023914916
 20
-300.5246696119
  0
LWPOLYLINE
  5
BB
330
1F
100
AcDbEntity
  8
0
  6
Continuous
 62
     7
370
    25
100
AcDbPolyline
 90
       67
 70
   128
 43
0.0
 10
595.551659321
 20
-151.7648755102
 10
598.4325981512
 20
-153.5708971906
 10
601.5611668165
 20
-155.8885254819
 10
604.514924263
 20
-158.4755408652
 10
607.287076754
 20
-161.3259931222
 10
609.8712482498
 20
-164.4333261214
 10
612.2614950733
 20
-167.7903928974
 10
614.4523195802
 20
-171.3894720889
 10
616.4386828038
 20
-175.2222856985
 10
618.2160160451
 20
-179.280018132
 10
619.7802313807
 20
-183.5533364749
 10
621.1277310651
 20
-188.032411958
 10
622.2554158061
 20
-192.7069425641
 10
623.1606918924
 20
-197.5661767231
 10
623.8414771601
 20
-202.5989380407
 10
624.2962057813
 20
-207.7936510046
 10
624.5238318655
 20
-213.1383676084
 10
624.5238318655
 20
-218.6207948328
 10
624.2962057813
 20
-224.2283229194
 10
623.8414771601
 20
-229.948054374
 10
623.1606918924
 20
-235.7668336308
 10
622.2554158061
 20
-241.6712773111
 10
621.1277310651
 20
-247.6478050054
 10
619.7802313807
 20
-253.6826705083
 10
618.2160160451
 20
-259.7619934357
 10
616.4386828038
 20
-265.8717911503
 10
614.4523195802
 20
-271.9980109213
 10
612.2614950733
 20
-278.1265622471
 10
609.8712482498
 20
-284.2433492631
 10
607.287076754
 20
-290.3343031633
 10
604.514924263
 20
-296.3854145584
 10
601.5611668165
 20
-302.3827656985
 10
598.4325981512
 20
-308.3125624835
 10
595.1364140753
 20
-314.161166191
 10
591.6801959179
 20
-319.9151248449
 10
588.0718930914
 20
-325.5612041561
 10
584.3198048079
 20
-331.086417961
 10
580.4325609908
 20
-336.478058091
 10
576.4191024254
 20
-341.7237236009
 10
572.2886601951
 20
-346.811349292
 10
568.0507344492
 20
-351.7292334621
 10
563.7150725529
 20
-356.4660648201
 10
559.2916466674
 20
-361.010948502
 10
554.790630814
 20
-365.3534311298
 10
550.2223774734
 20
-369.4835248542
 10
545.5973937748
 20
-373.3917303273
 10
540.9263173287
 20
-377.0690585513
 10
536.2198917608
 20
-380.5070515534
 10
531.4889420006
 20
-383.6978018396
 10
526.7443493842
 20
-386.6339705819
 10
521.9970266267
 20
-389.3088044982
 10
517.2578927225
 20
-391.7161513847
 10
512.5378478315
 20
-393.8504742664
 10
507.8477482082
 20
-395.7068641323
 10
503.198381232
 20
-397.2810512263
 10
498.6004405959
 20
-398.5694148676
 10
494.0645017108
 20
-399.5689917784
 10
489.6009973815
 20
-400.2774829
 10
485.2201938109
 20
-400.6932586799
 10
480.9321669876
 20
-400.8153628207
 10
476.7467795108
 20
-400.6435144788
 10
472.6736579058
 20
-400.1781089109
 10
468.7221704827
 20
-399.4202165648
 10
464.9014057893
 20
-398.3715806171
 10
461.2201517069
 20
-397.0346129642
 10
457.6868752377
 20
-395.4123886744
 10
455.5630367519
 20
-394.2585569767
  0
LWPOLYLINE
  5
BC
330
1F
100
AcDbEntity
  8
0
  6
Continuous
 62
     7
370
    25
100
AcDbPolyline
 90
       34
 70
   128
 43
0.0
 10
478.8883004781
 20
-346.8150095522
 10
479.0021222229
 20
-341.6043782011
 10
479.3432905094
 20
-336.2759250028
 10
479.9109152684
 20
-330.8435512836
 10
480.7035156318
 20
-325.3214294861
 10
481.7190237957
 20
-319.7239661956
 10
482.9547904153
 20
-314.0657645548
 10
484.4075915166
 20
-308.3615861656
 10
486.0736369073
 20
-302.6263125782
 10
487.9485800653
 20
-296.8749064665
 10
490.0275294779
 20
-291.1223725924
 10
492.3050614035
 20
-285.3837186599
 10
494.7752340214
 20
-279.6739161619
 10
497.4316029332
 20
-274.0078613213
 10
500.2672379758
 20
-268.4003362281
 10
503.274741301
 20
-262.8659702751
 10
506.4462666761
 20
-257.4192019911
 10
509.7735399536
 20
-252.0742413726
 10
513.2478806572
 20
-246.8450328117
 10
516.860224629
 20
-241.7452187164
 10
520.6011476757
 20
-236.7881039195
 10
524.4608901565
 20
-231.9866209673
 10
528.4293824438
 20
-227.3532963807
 10
532.4962711944
 20
-222.9002179746
 10
536.6509463598
 20
-218.639003322
 10
540.882568867
 20
-214.5807694454
 10
545.180098896
 20
-210.7361038137
 10
549.5323246816
 20
-207.1150367205
 10
553.9278917636
 20
-203.7270151164
 10
558.3553326096
 20
-200.580877963
 10
562.8030965317
 20
-197.6848331727
 10
567.2595798217
 20
-195.046436196
 10
571.7131560237
 20
-192.6725703091
 10
572.9495369697
 20
-192.0602991629
  0
LWPOLYLINE
  5
BD
330
1F
100
AcDbEntity
  8
0
  6
Continuous
 62
     7
370
    25
100
AcDbPolyline
 90
        3
 70
   128
 43
0.0
 10
479.1551085969
 20
-354.5346190023
 10
479.0021222229
 20
-351.8942251141
 10
478.8883004781
 20
-346.8150095522
  0
LWPOLYLINE
  5
BE
330
1F
100
AcDbEntity
  8
0
  6
Continuous
 62
     7
370
    25
100
AcDbPolyline
 90
       72
 70
   128
 43
0.0
 10
650.8056806433
 20
-160.5689578409
 10
652.5870859715
 20
-161.644191586
 10
656.0124924851
 20
-163.9942720996
 10
659.2663169121
 20
-166.6165116306
 10
662.3420064832
 20
-169.5056293376
 10
665.2333671689
 20
-172.6558069219
 10
667.9345761536
 20
-176.0607003451
 10
670.4401935618
 20
-179.7134526051
 10
672.7451734135
 20
-183.6067075449
 10
674.8448737861
 20
-187.7326246671
 10
676.7350661624
 20
-192.0828949238
 10
678.4119439466
 20
-196.6487574496
 10
679.87213013
 20
-201.4210172051
 10
681.1126840919
 20
-206.3900634941
 10
682.1311075217
 20
-211.5458893188
 10
682.9253494502
 20
-216.878111532
 10
683.4938103798
 20
-222.375991748
 10
683.835345506
 20
-228.0284579675
 10
683.9492670222
 20
-233.824126876
 10
683.835345506
 20
-239.7513267674
 10
683.4938103798
 20
-245.79812105
 10
682.9253494502
 20
-251.9523322849
 10
682.1311075217
 20
-258.2015667097
 10
681.1126840919
 20
-264.5332391979
 10
679.87213013
 20
-270.9345986036
 10
678.4119439466
 20
-277.3927534411
 10
676.7350661624
 20
-283.8946978459
 10
674.8448737861
 20
-290.4273377673
 10
672.7451734135
 20
-296.9775173379
 10
670.4401935618
 20
-303.5320453676
 10
667.9345761536
 20
-310.0777219095
 10
665.2333671689
 20
-316.601364842
 10
662.3420064832
 20
-323.0898364164
 10
659.2663169121
 20
-329.5300697145
 10
656.0124924851
 20
-335.9090949636
 10
652.5870859715
 20
-342.2140656556
 10
648.9969956841
 20
-348.4322844188
 10
645.2494515871
 20
-354.551228588
 10
641.3520007356
 20
-360.5585754241
 10
637.3124920768
 20
-366.4422269299
 10
633.1390606436
 20
-372.1903342144
 10
628.8401111715
 20
-377.7913213544
 10
624.4243011726
 20
-383.2339087073
 10
619.9005235007
 20
-388.5071356264
 10
615.2778884418
 20
-393.6003825346
 10
610.5657053678
 20
-398.5033923102
 10
605.7734639883
 20
-403.2062909443
 10
600.9108152397
 20
-407.6996074247
 10
595.9875518494
 20
-411.9742928101
 10
591.0135886148
 20
-416.021738453
 10
585.9989424357
 20
-419.8337933365
 10
580.9537121422
 20
-423.4027804894
 10
575.8880581568
 20
-426.7215124466
 10
570.8121820324
 20
-429.7833057235
 10
565.736305908
 20
-432.581994276
 10
560.6706519226
 20
-435.1119419177
 10
555.6254216291
 20
-437.3680536709
 10
550.61077545
 20
-439.3457860267
 10
545.6368122154
 20
-441.0411560952
 10
540.7135488251
 20
-442.450749627
 10
535.8509000765
 20
-443.5717278881
 10
531.058658697
 20
-444.4018333775
 10
526.346475623
 20
-444.9393943732
 10
521.7238405641
 20
-445.183328299
 10
517.2000628922
 20
-445.1331439043
 10
512.7842528933
 20
-444.788942254
 10
508.4853034212
 20
-444.1514165241
 10
504.311871988
 20
-443.2218506069
 10
500.2723633292
 20
-442.0021165242
 10
496.3749124776
 20
-440.4946706583
 10
492.6273683807
 20
-438.7025488045
 10
490.8186834215
 20
-437.7045938027
  0
LWPOLYLINE
  5
BF
330
1F
100
AcDbEntity
  8
0
  6
Continuous
 62
     7
370
    25
100
AcDbPolyline
 90
       94
 70
   128
 43
0.0
 10
577.3247752976
 20
-141.2427193339
 10
581.0247266468
 20
-140.4146817986
 10
585.8169680263
 20
-139.5845763092
 10
590.5291511002
 20
-139.0470153134
 10
595.1517861591
 20
-138.8030813877
 10
599.6755638311
 20
-138.8532657823
 10
604.09137383
 20
-139.1974674327
 10
608.3903233021
 20
-139.8349931625
 10
612.5637547353
 20
-140.7645590798
 10
616.6032633941
 20
-141.9842931624
 10
620.5007142456
 20
-143.4917390284
 10
624.2482583426
 20
-145.2838608822
 10
627.8383486299
 20
-147.3570496291
 10
631.2637551435
 20
-149.7071301427
 10
634.5175795706
 20
-152.3293696737
 10
637.5932691417
 20
-155.2184873807
 10
640.4846298274
 20
-158.368664965
 10
643.185838812
 20
-161.7735583882
 10
645.6914562202
 20
-165.4263106482
 10
647.996436072
 20
-169.319565588
 10
650.0961364445
 20
-173.4454827102
 10
651.9863288209
 20
-177.7957529669
 10
653.6632066051
 20
-182.3616154927
 10
655.1233927885
 20
-187.1338752482
 10
656.3639467504
 20
-192.1029215372
 10
657.3823701802
 20
-197.2587473619
 10
658.1766121087
 20
-202.5909695751
 10
658.7450730383
 20
-208.0888497911
 10
659.0866081644
 20
-213.7413160106
 10
659.2005296807
 20
-219.5369849191
 10
659.0866081644
 20
-225.4641848105
 10
658.7450730383
 20
-231.5109790931
 10
658.1766121087
 20
-237.665190328
 10
657.3823701802
 20
-243.9144247528
 10
656.3639467504
 20
-250.246097241
 10
655.1233927885
 20
-256.6474566467
 10
653.6632066051
 20
-263.1056114842
 10
651.9863288209
 20
-269.607555889
 10
650.0961364445
 20
-276.1401958104
 10
647.996436072
 20
-282.690375381
 10
645.6914562202
 20
-289.2449034107
 10
643.185838812
 20
-295.7905799526
 10
640.4846298274
 20
-302.3142228851
 10
637.5932691417
 20
-308.8026944595
 10
634.5175795706
 20
-315.2429277576
 10
631.2637551435
 20
-321.6219530067
 10
627.8383486299
 20
-327.9269236987
 10
624.2482583426
 20
-334.1451424619
 10
620.5007142456
 20
-340.2640866311
 10
616.6032633941
 20
-346.2714334672
 10
612.5637547353
 20
-352.155084973
 10
608.3903233021
 20
-357.9031922575
 10
604.09137383
 20
-363.5041793975
 10
599.6755638311
 20
-368.9467667504
 10
595.1517861591
 20
-374.2199936695
 10
590.5291511002
 20
-379.3132405777
 10
585.8169680263
 20
-384.2162503533
 10
581.0247266468
 20
-388.9191489874
 10
576.1620778982
 20
-393.4124654678
 10
571.2388145079
 20
-397.6871508532
 10
566.2648512732
 20
-401.7345964961
 10
561.2502050941
 20
-405.5466513796
 10
556.2049748007
 20
-409.1156385325
 10
551.1393208153
 20
-412.4343704897
 10
546.0634446909
 20
-415.4961637666
 10
540.9875685664
 20
-418.2948523191
 10
535.921914581
 20
-420.8247999608
 10
530.8766842876
 20
-423.080911714
 10
525.8620381085
 20
-425.0586440698
 10
520.8880748738
 20
-426.7540141384
 10
515.9648114836
 20
-428.1636076701
 10
511.102162735
 20
-429.2845859312
 10
506.3099213555
 20
-430.1146914206
 10
501.5977382815
 20
-430.6522524163
 10
496.9751032226
 20
-430.8961863421
 10
492.4513255506
 20
-430.8460019474
 10
488.0355155518
 20
-430.5018002971
 10
483.7365660797
 20
-429.8642745672
 10
479.5631346465
 20
-428.93470865
 10
475.5236259877
 20
-427.7149745673
 10
471.6261751361
 20
-426.2075287014
 10
467.8786310391
 20
-424.4154068476
 10
464.2885407518
 20
-422.3422181007
 10
460.8631342382
 20
-419.9921375871
 10
457.6093098111
 20
-417.3698980561
 10
454.53362024
 20
-414.4807803491
 10
451.6422595543
 20
-411.3306027648
 10
448.9410505697
 20
-407.9257093415
 10
446.4354331615
 20
-404.2729570816
 10
444.1304533098
 20
-400.3797021418
 10
442.0307529372
 20
-396.2537850196
 10
440.1405605608
 20
-391.9035147629
 10
438.4636827766
 20
-387.337652237
 10
437.3361527286
 20
-383.7364008004
  0
LWPOLYLINE
  5
C0
330
1F
100
AcDbEntity
  8
0
  6
Continuous
 62
     7
370
    25
100
AcDbPolyline
 90
       73
 70
   128
 43
0.0
 10
610.690854521
 20
-156.6787204074
 10
611.4118338777
 20
-156.9527637763
 10
615.0265411488
 20
-158.5302873867
 10
618.4873647856
 20
-160.3896788528
 10
621.7865823372
 20
-162.5267891452
 10
624.9168319593
 20
-164.9368495352
 10
627.8711288408
 20
-167.6144822356
 10
630.6428807904
 20
-170.553712401
 10
633.2259029455
 20
-173.7479814595
 10
635.6144315738
 20
-177.1901617478
 10
637.8031369338
 20
-180.8725724157
 10
639.7871351682
 20
-184.786996565
 10
641.561999201
 20
-188.924699585
 10
643.1237686165
 20
-193.2764486422
 10
644.4689584966
 20
-197.8325332828
 10
645.5945671965
 20
-202.5827871005
 10
646.4980830433
 20
-207.5166104216
 10
647.1774899396
 20
-212.6229939569
 10
647.631271863
 20
-217.8905433682
 10
647.8584162487
 20
-223.3075046928
 10
647.8584162487
 20
-228.861790572
 10
647.631271863
 20
-234.5410072222
 10
647.1774899396
 20
-240.3324820902
 10
646.4980830433
 20
-246.223292131
 10
645.5945671965
 20
-252.200292644
 10
644.4689584966
 20
-258.2501466039
 10
643.1237686165
 20
-264.3593544209
 10
641.561999201
 20
-270.5142840635
 10
639.7871351682
 20
-276.701201477
 10
637.8031369338
 20
-282.9063012293
 10
635.6144315738
 20
-289.1157373167
 10
633.2259029455
 20
-295.3156540591
 10
630.6428807904
 20
-301.492217018
 10
627.8711288408
 20
-307.6316438662
 10
624.9168319593
 20
-313.7202351419
 10
621.7865823372
 20
-319.744404817
 10
618.4873647856
 20
-325.6907106135
 10
615.0265411488
 20
-331.545883998
 10
611.4118338777
 20
-337.2968597891
 10
607.6513087977
 20
-342.9308053111
 10
603.7533571105
 20
-348.4351490286
 10
599.7266766706
 20
-353.7976085983
 10
595.5802525767
 20
-359.0062182762
 10
591.3233371222
 20
-364.0493556174
 10
586.96542915
 20
-368.9157674104
 10
582.5162528568
 20
-373.5945947877
 10
577.9857360948
 20
-378.0753974558
 10
573.3839882183
 20
-382.348176992
 10
568.7212775262
 20
-386.4033991544
 10
564.0080083493
 20
-390.2320151565
 10
559.2546978342
 20
-393.825481859
 10
554.4719524753
 20
-397.1757808326
 10
549.6704444475
 20
-400.2754362503
 10
544.8608877929
 20
-403.1175315687
 10
540.0540145129
 20
-405.6957249619
 10
535.2605506215
 20
-408.0042634722
 10
530.491192211
 20
-410.0379958477
 10
525.7565815848
 20
-411.792384036
 10
521.0672835107
 20
-413.2635133112
 10
516.4337616462
 20
-414.4481010086
 10
511.8663551905
 20
-415.3435038498
 10
507.3752558133
 20
-415.9477238411
 10
502.9704849135
 20
-416.2594127312
 10
498.6618712572
 20
-416.2778750205
 10
494.4590290464
 20
-416.0030695123
 10
490.3713364654
 20
-415.4356094051
 10
486.4079147547
 20
-414.5767609245
 10
482.577607858
 20
-413.4284404971
 10
478.8889626877
 20
-411.9932104749
 10
475.3502100534
 20
-410.2742734172
 10
471.9692462962
 20
-408.2754649447
 10
468.7536156681
 20
-406.0012451809
 10
467.3891485638
 20
-404.9114524701
  0
LWPOLYLINE
  5
C1
330
1F
100
AcDbEntity
  8
0
  6
Continuous
 62
     7
370
    25
100
AcDbPolyline
 90
       32
 70
   128
 43
0.0
 10
478.9186892019
 20
-349.456515804
 10
479.0025691048
 20
-346.8461812232
 10
479.3450908949
 20
-341.3704462571
 10
479.9150142853
 20
-335.7897117318
 10
480.7109223567
 20
-330.1178522328
 10
481.7308363562
 20
-324.3689688964
 10
482.9722206168
 20
-318.5573543523
 10
484.4319888619
 20
-312.6974571901
 10
486.1065118774
 20
-306.8038460373
 10
487.9916265353
 20
-300.89117334
 10
490.0826461435
 20
-294.974138934
 10
492.3743720979
 20
-289.0674534991
 10
494.8611068066
 20
-283.1858019861
 10
497.5366678554
 20
-277.3438071074
 10
500.3944033778
 20
-271.5559929826
 10
503.4272085932
 20
-265.8367490296
 10
506.6275434698
 20
-260.20029419
 10
509.987451471
 20
-254.6606415787
 10
513.4985793361
 20
-249.2315636449
 10
517.1521978478
 20
-243.9265579318
 10
520.9392235351
 20
-238.7588135193
 10
524.8502412553
 20
-233.7411782344
 10
528.8755276021
 20
-228.886126709
 10
533.0050750794
 20
-224.2057293662
 10
537.2286169816
 20
-219.7116224111
 10
541.5356529181
 20
-215.4149789018
 10
545.9154749187
 20
-211.326480971
 10
550.3571940561
 20
-207.4562932688
 10
554.8497675164
 20
-203.8140376916
 10
559.3820260544
 20
-200.4087694606
 10
563.942701761
 20
-197.2489546093
 10
568.4337799664
 20
-194.3950293208
  0
ENDSEC
  0
SECTION
  2
OBJECTS
  0
DICTIONARY
  5
C
330
0
100
AcDbDictionary
281
     1
  3
ACAD_GROUP
350
D
  3
ACAD_LAYOUT
350
1A
  3
ACAD_MLINESTYLE
350
17
  3
ACAD_PLOTSETTINGS
350
19
  3
ACAD_PLOTSTYLENAME
350
E
  3
ACAD_SCALELIST
350
47
  0
DICTIONARY
  5
D
102
{ACAD_REACTORS
330
C
102
}
330
C
100
AcDbDictionary
281
     1
  0
DICTIONARY
  5
1A
102
{ACAD_REACTORS
330
C
102
}
330
C
100
AcDbDictionary
281
     1
  3
Layout1
350
1E
  3
Layout2
350
26
  3
Model
350
22
  0
DICTIONARY
  5
17
102
{ACAD_REACTORS
330
C
102
}
330
C
100
AcDbDictionary
281
     1
  3
Standard
350
18
  0
DICTIONARY
  5
19
102
{ACAD_REACTORS
330
C
102
}
330
C
100
AcDbDictionary
281
     1
  0
ACDBDICTIONARYWDFLT
  5
E
102
{ACAD_REACTORS
330
C
102
}
330
C
100
AcDbDictionary
281
     1
  3
Normal
350
F
100
AcDbDictionaryWithDefault
340
F
  0
DICTIONARY
  5
47
102
{ACAD_REACTORS
330
C
102
}
330
C
100
AcDbDictionary
281
     1
  3
A0
350
48
  3
A1
350
49
  3
A2
350
4A
  3
A3
350
4B
  3
A4
350
4C
  3
A5
350
4D
  3
A6
350
4E
  3
A7
350
4F
  3
A8
350
50
  3
A9
350
51
  3
B0
350
52
  3
B1
350
53
  3
B2
350
54
  3
B3
350
55
  3
B4
350
56
  3
B5
350
57
  3
B6
350
58
  3
B7
350
59
  3
B8
350
5A
  3
B9
350
5B
  3
C0
350
5C
  3
C1
350
5D
  3
C2
350
5E
  3
C3
350
5F
  3
C4
350
60
  3
C5
350
61
  3
C6
350
62
  3
C7
350
63
  3
C8
350
64
  3
C9
350
65
  3
D0
350
66
  3
D1
350
67
  3
D2
350
68
  0
LAYOUT
  5
1E
102
{ACAD_REACTORS
330
1A
102
}
330
1A
100
AcDbPlotSettings
  1

  2
none_device
  4

  6

 40
0.0
 41
0.0
 42
0.0
 43
0.0
 44
0.0
 45
0.0
 46
0.0
 47
0.0
 48
0.0
 49
0.0
140
0.0
141
0.0
142
1.0
143
1.0
 70
   688
 72
     1
 73
     0
 74
     5
  7

 75
    16
147
1.0
148
0.0
149
0.0
100
AcDbLayout
  1
Layout1
 70
     1
 71
     1
 10
0.0
 20
0.0
 11
420.0
 21
297.0
 12
0.0
 22
0.0
 32
0.0
 14
1.0000000000E+20
 24
1.0000000000E+20
 34
1.0000000000E+20
 15
-1.0000000000E+20
 25
-1.0000000000E+20
 35
-1.0000000000E+20
146
0.0
 13
0.0
 23
0.0
 33
0.0
 16
1.0
 26
0.0
 36
0.0
 17
0.0
 27
1.0
 37
0.0
 76
     0
330
1B
  0
LAYOUT
  5
26
102
{ACAD_REACTORS
330
1A
102
}
330
1A
100
AcDbPlotSettings
  1

  2
none_device
  4

  6

 40
0.0
 41
0.0
 42
0.0
 43
0.0
 44
0.0
 45
0.0
 46
0.0
 47
0.0
 48
0.0
 49
0.0
140
0.0
141
0.0
142
1.0
143
1.0
 70
   688
 72
     1
 73
     0
 74
     5
  7

 75
    16
147
1.0
148
0.0
149
0.0
100
AcDbLayout
  1
Layout2
 70
     1
 71
     2
 10
0.0
 20
0.0
 11
0.0
 21
0.0
 12
0.0
 22
0.0
 32
0.0
 14
0.0
 24
0.0
 34
0.0
 15
0.0
 25
0.0
 35
0.0
146
0.0
 13
0.0
 23
0.0
 33
0.0
 16
1.0
 26
0.0
 36
0.0
 17
0.0
 27
1.0
 37
0.0
 76
     0
330
23
  0
LAYOUT
  5
22
102
{ACAD_REACTORS
330
1A
102
}
330
1A
100
AcDbPlotSettings
  1

  2
none_device
  4
Letter_(8.50_x_11.00_Inches)
  6

 40
6.35
 41
6.35
 42
6.35000508
 43
6.35000508
 44
215.9
 45
279.4
 46
0.0
 47
0.0
 48
0.0
 49
0.0
140
0.0
141
0.0
142
1.0
143
1.0
 70
  1712
 72
     1
 73
     0
 74
     0
  7

 75
     0
147
1.0
148
0.0
149
0.0
100
AcDbLayout
  1
Model
 70
     1
 71
     0
 10
0.0
 20
0.0
 11
279.4
 21
215.9
 12
0.0
 22
0.0
 32
0.0
 14
0.0
 24
0.0
 34
0.0
 15
279.4
 25
215.9
 35
0.0
146
0.0
 13
0.0
 23
0.0
 33
0.0
 16
1.0
 26
0.0
 36
0.0
 17
0.0
 27
1.0
 37
0.0
 76
     0
330
1F
331
29
  0
MLINESTYLE
  5
18
102
{ACAD_REACTORS
330
17
102
}
330
17
100
AcDbMlineStyle
  2
Standard
 70
     0
  3

 62
   256
 51
90.0
 52
90.0
 71
     2
 49
0.5
 62
   256
  6
BYLAYER
 49
-0.5
 62
   256
  6
BYLAYER
  0
ACDBPLACEHOLDER
  5
F
102
{ACAD_REACTORS
330
E
102
}
330
E
  0
SCALE
  5
48
102
{ACAD_REACTORS
330
47
102
}
330
47
100
AcDbScale
 70
     0
300
1:1
140
1.0
141
1.0
290
     1
  0
SCALE
  5
49
102
{ACAD_REACTORS
330
47
102
}
330
47
100
AcDbScale
 70
     0
300
1:2
140
1.0
141
2.0
290
     0
  0
SCALE
  5
4A
102
{ACAD_REACTORS
330
47
102
}
330
47
100
AcDbScale
 70
     0
300
1:4
140
1.0
141
4.0
290
     0
  0
SCALE
  5
4B
102
{ACAD_REACTORS
330
47
102
}
330
47
100
AcDbScale
 70
     0
300
1:5
140
1.0
141
5.0
290
     0
  0
SCALE
  5
4C
102
{ACAD_REACTORS
330
47
102
}
330
47
100
AcDbScale
 70
     0
300
1:8
140
1.0
141
8.0
290
     0
  0
SCALE
  5
4D
102
{ACAD_REACTORS
330
47
102
}
330
47
100
AcDbScale
 70
     0
300
1:10
140
1.0
141
10.0
290
     0
  0
SCALE
  5
4E
102
{ACAD_REACTORS
330
47
102
}
330
47
100
AcDbScale
 70
     0
300
1:16
140
1.0
141
16.0
290
     0
  0
SCALE
  5
4F
102
{ACAD_REACTORS
330
47
102
}
330
47
100
AcDbScale
 70
     0
300
1:20
140
1.0
141
20.0
290
     0
  0
SCALE
  5
50
102
{ACAD_REACTORS
330
47
102
}
330
47
100
AcDbScale
 70
     0
300
1:30
140
1.0
141
30.0
290
     0
  0
SCALE
  5
51
102
{ACAD_REACTORS
330
47
102
}
330
47
100
AcDbScale
 70
     0
300
1:40
140
1.0
141
40.0
290
     0
  0
SCALE
  5
52
102
{ACAD_REACTORS
330
47
102
}
330
47
100
AcDbScale
 70
     0
300
1:50
140
1.0
141
50.0
290
     0
  0
SCALE
  5
53
102
{ACAD_REACTORS
330
47
102
}
330
47
100
AcDbScale
 70
     0
300
1:100
140
1.0
141
100.0
290
     0
  0
SCALE
  5
54
102
{ACAD_REACTORS
330
47
102
}
330
47
100
AcDbScale
 70
     0
300
2:1
140
2.0
141
1.0
290
     0
  0
SCALE
  5
55
102
{ACAD_REACTORS
330
47
102
}
330
47
100
AcDbScale
 70
     0
300
4:1
140
4.0
141
1.0
290
     0
  0
SCALE
  5
56
102
{ACAD_REACTORS
330
47
102
}
330
47
100
AcDbScale
 70
     0
300
8:1
140
8.0
141
1.0
290
     0
  0
SCALE
  5
57
102
{ACAD_REACTORS
330
47
102
}
330
47
100
AcDbScale
 70
     0
300
10:1
140
10.0
141
1.0
290
     0
  0
SCALE
  5
58
102
{ACAD_REACTORS
330
47
102
}
330
47
100
AcDbScale
 70
     0
300
100:1
140
100.0
141
1.0
290
     0
  0
SCALE
  5
59
102
{ACAD_REACTORS
330
47
102
}
330
47
100
AcDbScale
 70
     0
300
1/128" = 1'-0"
140
0.0078125
141
12.0
290
     0
  0
SCALE
  5
5A
102
{ACAD_REACTORS
330
47
102
}
330
47
100
AcDbScale
 70
     0
300
1/64" = 1'-0"
140
0.015625
141
12.0
290
     0
  0
SCALE
  5
5B
102
{ACAD_REACTORS
330
47
102
}
330
47
100
AcDbScale
 70
     0
300
1/32" = 1'-0"
140
0.03125
141
12.0
290
     0
  0
SCALE
  5
5C
102
{ACAD_REACTORS
330
47
102
}
330
47
100
AcDbScale
 70
     0
300
1/16" = 1'-0"
140
0.0625
141
12.0
290
     0
  0
SCALE
  5
5D
102
{ACAD_REACTORS
330
47
102
}
330
47
100
AcDbScale
 70
     0
300
3/32" = 1'-0"
140
0.09375
141
12.0
290
     0
  0
SCALE
  5
5E
102
{ACAD_REACTORS
330
47
102
}
330
47
100
AcDbScale
 70
     0
300
1/8" = 1'-0"
140
0.125
141
12.0
290
     0
  0
SCALE
  5
5F
102
{ACAD_REACTORS
330
47
102
}
330
47
100
AcDbScale
 70
     0
300
3/16" = 1'-0"
140
0.1875
141
12.0
290
     0
  0
SCALE
  5
60
102
{ACAD_REACTORS
330
47
102
}
330
47
100
AcDbScale
 70
     0
300
1/4" = 1'-0"
140
0.25
141
12.0
290
     0
  0
SCALE
  5
61
102
{ACAD_REACTORS
330
47
102
}
330
47
100
AcDbScale
 70
     0
300
3/8" = 1'-0"
140
0.375
141
12.0
290
     0
  0
SCALE
  5
62
102
{ACAD_REACTORS
330
47
102
}
330
47
100
AcDbScale
 70
     0
300
1/2" = 1'-0"
140
0.5
141
12.0
290
     0
  0
SCALE
  5
63
102
{ACAD_REACTORS
330
47
102
}
330
47
100
AcDbScale
 70
     0
300
3/4" = 1'-0"
140
0.75
141
12.0
290
     0
  0
SCALE
  5
64
102
{ACAD_REACTORS
330
47
102
}
330
47
100
AcDbScale
 70
     0
300
1" = 1'-0"
140
1.0
141
12.0
290
     0
  0
SCALE
  5
65
102
{ACAD_REACTORS
330
47
102
}
330
47
100
AcDbScale
 70
     0
300
1-1/2" = 1'-0"
140
1.5
141
12.0
290
     0
  0
SCALE
  5
66
102
{ACAD_REACTORS
330
47
102
}
330
47
100
AcDbScale
 70
     0
300
3" = 1'-0"
140
3.0
141
12.0
290
     0
  0
SCALE
  5
67
102
{ACAD_REACTORS
330
47
102
}
330
47
100
AcDbScale
 70
     0
300
6" = 1'-0"
140
6.0
141
12.0
290
     0
  0
SCALE
  5
68
102
{ACAD_REACTORS
330
47
102
}
330
47
100
AcDbScale
 70
     0
300
1'-0" = 1'-0"
140
12.0
141
12.0
290
     0
  0
ENDSEC
  0
EOF
